How To: Play "Bleed It Out" by Linkin Park on guitar

Play "Bleed It Out" by Linkin Park on guitar

Learn how to play "Bleed It Out" by Linkin Park, an acoustic guitar tutorial. Follow along with this demonstration, tabs and lyrics here:

TUning: Drop D

Intro/Verse:

e|9-99----9---9-99-7--7-77--77775555-|
b|-7--7777-777-7----77-7--7-----7777-|
g|-----------------------------------|
d|-----------------------------------|
a|-----------------------------------|
D|-----------------------------------|

Pre:

e|--------------|-----------------------|
B|--------------|----------4------------|
G|-0----2----4--|--0---2---4--2-0-------|
D|-0----2----4--|--0---2---2--2-0-------|
A|-0----2----4--|--0---2------2-0-------|

Chorus:

e|-----------------|-----------------|
B|------------9-6--|------------9-6--|
G|-4--6-11-9--9-6--|-4--6-11-9--9-6--|
D|-4--6-11-9--7-4--|-4--6-11-9--7-4--|
A|-4--6-11-9-------|-4--6-11-9-------|

Bridge:

e|---------------|
B|---------------|
G|-0--2--0--2----|
D|-0--2--0--2----|
A|-0--2--0--2----|

Lyrics:
http://www.guitartutee.com/l/linkin-park-l/linkin-park-bleed-it-out/

Be the First to Comment

Share Your Thoughts

  • Hot
  • Latest