How To: Play "I Don't Care" by Fall Out Boy on guitar

Play "I Don't Care" by Fall Out Boy on guitar

How to Play "I Don't Care" by Fall Out Boy on guitar

Learn how to play "I Don't Care" by Fall Out Boy, an acoustic guitar tutorial. Follow along with this demonstration, tabs and lyrics here:

Standard Tuning:

Intro/Verses
e|----------------------------------------------|
B|----------------------------------------------|
G|--------2-------------------2-----------------|
D|---4--4---4-4-4-4-4------4--4---4-4-4-4-4-----|
A|----------0-2-0-2-0-------------0-2-0-2-0-----|
E|-2--2----------------2--2------------------2--|

Small riff in verse
e|----------------------------|
B|----------------------------|
G|----------------------------|
D|----------------------------|
A|-555555444444222222---------|
E|-------------------222222---|

Chorus
e|--------------------------------------------------------------------|
B|--------------------------------------------------------------------|
G|-----------------7-7-7-7-4-4-4-4-7-7-7-7-4-4-4-4--------2-----------|
D|-4-4-4-4-7-7-7-7-7-7-7-7-4-4-4-4-7-7-7-7-4-4-4-4---4--4--4-4-4-4-4--|
A|-4-4-4-4-7-7-7-7-5-5-5-5-2-2-2-2-5-5-5-5-2-2-2-2---------0-2-0-2-0--|
E|-2-2-2-2-5-5-5-5---------------------------------2--2---------------|x2

End 2nd and 3rd Chorus' with..
e|-----|
B|-----|
G|-----|
D|-4~--|
A|-4~--|
E|-2~--|

LYRICS: http://www.guitartutee.com/f/fall-out-boy-f/fall-out-boy-i-dont-care/

Be the First to Comment

Share Your Thoughts

  • Hot
  • Latest