How To: Play "Final Day" by Tokio Hotel on guitar

Play "Final Day" by Tokio Hotel on guitar

How to Play "Final Day" by Tokio Hotel on guitar

Learn how to play "Final Day" by Tokio Hotel, an acoustic guitar tutorial. Follow along with this demonstration, tabs and lyrics here:

Intro & First Verse
E|------------------------------------|
B|------------------------------------|
G|------------------------------------|
D|---3--3----4444444------------------| 6x
A|--3--3-3-2-4444444------------------|
E|-1--1------2222222------------------|

Bridge
E|-----------------------------------|
B|-----------------------------------|
G|-3333-333-6-66-666-3333-33-66-6-6--|
D|-3333-333-6-66-666-3333-33-66-6-6--|
A|-1111-111-4-44-444-1111-11-44-4-4--|
E|-----------------------------------|

Chorus
E|---------------------|
B|---------------------|
G|------6666-----------|
D|-3333-6666-666-6-666-| x2
A|-3333-4444-666-6-666-|
E|-1111------444-3-333-|

E|---------------------|
B|---------------------|
G|-5555-6666-----------|
D|-5555-6666-666-6-666-|
A|-3333-4444-666-6-666-|
E|-----------444-3-333-|

E|-----------------------------------|
B|-----------------------------------|
G|-33333333-666666/10-33333333-66666-|
D|-33333333-666666/10-33333333-66666-|
A|-11111111-444444/8--11111111-44444-|
E|-----------------------------------|

Verse
E|------------------------------------|
B|------------------------------------|
G|------------------------------------|
D|---3--3----4444444------------------| 4x
A|--3--3-3-2-4444444------------------|
E|-1--1------2222222------------------|

Bridge
E|-----------------------------------|
B|-----------------------------------|
G|-3333-333-6-66-666-3333-33-66-6-6--|
D|-3333-333-6-66-666-3333-33-66-6-6--|
A|-1111-111-4-44-444-1111-11-44-4-4--|
E|-----------------------------------|

Chorus
E|---------------------|
B|---------------------|
G|------6666-----------|
D|-3333-6666-666-6-666-| x2
A|-3333-4444-666-6-666-|
E|-1111------444-3-333-|

For the rest, http://www.guitartutee.com/tabs/2008/09/07/tokio-hotel-final-day/

lyrics: htt

Be the First to Comment

Share Your Thoughts

  • Hot
  • Latest