How To: Play "Get Back" by Demi Lovato on guitar

Play "Get Back" by Demi Lovato on guitar

How to Play "Get Back" by Demi Lovato on guitar

Learn how to play "Get Back" by Demi Lovato, an acoustic guitar tutorial. Follow along with this demonstration, tabs here:

Standard Tuning:

Verse:listen to the song for timing
|------------|
|------------|
|------------| 4x
|-5555--9-10-|
|-5555--9-10-|
|-3333--7-8--|

Pre-chorus:
|--------------------------------------|
|--------------------------------------|
|-------5-----------3-----5-----7------|
|-3--8x-5-----5-----3--8x-5-----7------|
|-3-----3--8x-5-16x-1-----3--8x-5--16x-|
|-1-----------3------------------------|

Chorus:
|-----------------| |------|
|-----------------| |------|
|-----------5-----| 3x |-8--10|
|-5----3----5-16x-| |-8--10|
|-5-8x-3-8x-3-----| |-6--8-|
|-3----1----------| |------|

the solo after the 2nd chorus, before the bridge
|----------------------|
|----------------------|
|----------------------| 2x
|----------7-5-7/8-7/5-|
|---2-37-8-------------|
|-3--------------------|

bridge:
|---------------------------------|
|---------------------------------|
|------5---------5---------5------|
|-5----5-8x-5----5-8x-5----5-8x-5-|
|-5-8x-3----5-8x-3----5-8x-3----5-|
|-3---------3---------3---------3-|

Be the First to Comment

Share Your Thoughts

  • Hot
  • Latest