How To: Play "Gives You Hell" by The All American Rejects

Play "Gives You Hell" by The All American Rejects

Learn how to play "Gives You Hell" by The All American Rejects, an acoustic guitar tutorial. Follow along with this demonstration, tabs and lyrics here:

Intro/Verse

E---------------------------|l
B---------------------------|l
G------9-----6--------------|l
D-----------------6----6----|l
A---7 7---4 4---------------|l
E--------------5 5---5 5----|l

Chorus

E-----------------------------------|l
B-----------------------------------|l
G---9--9----6--6--------------------|l
D---9--9----4--6-----7--7----7--7---|l
A---7--7----4--6-----7--7----7--7---|l
E--------------------5--5----5--5---|l

Prechorus:
B C#m B A

Bridge:
C#m A E G#-F#m
C#m C#? A B

C#? = x45654

Lyrics:
http://www.guitartutee.com/a/all-american-rejects-a/all-american-rejects-gives-you-hell/

Be the First to Comment

Share Your Thoughts

  • Hot
  • Latest