How To: Play "Goodbye" by Secondhand Serenade on guitar

Play "Goodbye" by Secondhand Serenade on guitar

How to Play "Goodbye" by Secondhand Serenade on guitar

Learn how to play "Goodbye" by Secondhand Serenade, an acoustic guitar tutorial. Follow along with this demonstration, tabs and lyrics here:

eb|----------0----------------0----------------0---------------0--------------|
Bb|---------------------------------------------------------------------------|
Gb|------9-----9---9------9-----9---9------9-----9---9-----9------9---9-------|
Db|----9---9-----9------9---9-----9------9---9-----9-----9---9------9---------|
Ab|--7----------------7-------------------------------------------------------|
Eb|------------------------------------9---------------9----------------------|

eb|----------0---------------0----------------0----------------0--------------|
Bb|---------------------------------------------------------------------------|
Gb|------9-----9---9-----9-----9---9------9-----9---9------8-----9---9--------|
Db|----9---9-----9-----9---9-----9------9---9-----9------9---9-----9----------|
Ab|--0---------------0----------------7---------------------------------------|
Eb|----------------------------------------------------7----------------------|

Chords: E5 (7th fret), A5 (5th fret), B5 (7th fret) & C#5 (9th fret)

E5 C#
It's a shame that it had to be this way
A5
It's not enough to say I'm sorry
E5-B5
It's not enough to say I'm sorry

E5
Maybe I'm to blame
C#
Or maybe were the same
A5
But either way I can't breathe
E5 B5
Either way I can't breathe

A5 B5 C#
All I had to say is goodbye
E5 A5
Were better off this way
B5 C# E5( 6 TH STRING AIR)
Were better off this way

E5 C#
I'm alive but I'm losing all my drive
A5
Cause everything were been through
E5-B5
And everything about you
E5
Seemed to be a lie
C#
A guiltless twisted lie
A5
It made me learn to hate you
E5 B5
Or hate myself for letting it pass by

For the rest: http://www.guitartutee.com/tabs/2008/09/26/secondhand-serenade-goodbye/

Be the First to Comment

Share Your Thoughts

  • Hot
  • Latest