How To: Play "MakeDamnSure" by Taking Back Sunday on guitar

Play "MakeDamnSure" by Taking Back Sunday on guitar

How to Play "MakeDamnSure" by Taking Back Sunday on guitar

Learn how to play "MakeDamnSure" by Taking Back Sunday, an acoustic guitar tutorial. Follow along with this demonstration, tabs and lyrics here:

| Intro (0:00-0:13) |
|___________________|

Guitar 1
eb| |---------------------------------|---------------------------------|
Bb| |---------------------------------|---------------------------------|
Gb| |---------------------------------|---------------------------------|
Db| |-----4---------------4-------4---|-----4---------------5-----------|
Ab| |-----------------2-2-----5-5-----|-----------------3-3-------------|
Eb| |-3-3-----------------------------|-0(0)----------------------------|
You've got this new head I got my veins all tangled close
filled up with smoke and
Guitar 1
eb| |---------------------------------|---------------------------------|
Bb| |---------------------------------|---------------------------------|
Gb| |---------------------------------|---------------------2-----------|
Db| |-----4---------------4-------4---|-----4-------------2-------------|
Ab| |-----------------2-2-------------|-----------------0---------------|
Eb| |-3-3---------------------2-2-----|-0(0)----------------------------|
To the jukebox bars The safest place to hide |
you frequent |
Guitar 2 |
eb| |---------------------------------|---------------------------------|
Bb| |---------------------------------|---------------------------------|
Gb| |---------------------------------|---------------------------------|
Db| |---------------------------------|---------------------------7-7-7-|
Ab| |---------------------------------|---------------------------7-7-7-|
Eb| |---------------------------------|---------------------------5-5-5-|


For the rest: http://www.guitartutee.com/tabs/2008/12/04/taking-back-sunday-makedamnsure/

Be the First to Comment

Share Your Thoughts

  • Hot
  • Latest