How To: Play "The Man Who Can't Be Moved" by The Script

Play "The Man Who Can't Be Moved" by The Script

How to Play "The Man Who Can't Be Moved" by The Script

Learn how to play "The Man Who Can't Be Moved" by The Script, an acoustic guitar tutorial. Follow along with this demonstration, tabs and lyrics here:

Standard TUning:

Intro/Verse
1|------------------------------------------------------------------|
2|------------------------------------------------------------------|
3|------------------------------------5--5-7-5--------5--5-7-5------|
4|---8--8------------8--8-----------8--8-------8----8--8-------8----|
5|--5--5---5--------5--5--5--------6--------------6-----------------|
6|-6--6---6--------5--5--5------------------------------------------|

Going back to the corner where I first saw you,
Gonna camp in my sleeping bag. I'm not gonna move,
Got some words on cardboard got your picture in my hand,
Saying if you see this girl can you tell her where I am,
Some try to hand me money they don't understand,
I'm not... broke I'm just a broken hearted man,
I know it makes no sense, but what else can I do,
How can I move on when I've been in love with you...

Chorus :

A# F or F {8th fret} Cm
1|--1------1------x--------------3---------------------------------|
2|--3------1------10-------------4---------------------------------|
3|--3------2------10-------------5---------------------------------|
4|--3------3------10-------------5---------------------------------|
5|--1------3------8--------------3---------------------------------|
6|--x------1------x--------------x---------------------------------|

Cos if one day you wake up and find that you're missing me,
And your heart starts to wonder where on this earth I can be,
Thinking maybe you'd come back here to the place that we'd meet,
And you'd see me waiting for you on the corner of the street.

So I'm not moving...
I'm not moving.

For the rest:
http://www.guitartutee.com/tabs/2008/09/22/the-script-the-man-who-cant-be-moved/

Be the First to Comment

Share Your Thoughts

  • Hot
  • Latest