How To: Play "Stupid Boy" by Keith Urban on guitar

Play "Stupid Boy" by Keith Urban on guitar

Learn how to play "Stupid Boy" by Keith Urban, an acoustic guitar tutorial. Follow along with this demonstration, tabs and lyrics here:

Standard TUning:
Capo On 1st Fret

Intro

e|-------------------------------------------------------------------------|
B|-----------3--3--------2--X-X-X--2---2p0---------------------------------|
G|-2/4--4\2--2--2-2p0----2--X-X-X--2---2p0---------------------------------|
D|-0----0----0--0-----4--2--X-X-X--2---2p0---------------------------------|
A|-0----0----0--0--------0--X-X-X--0---0-----------------------------------|
E|-------------------------------------------------------------------------|

e|-------------------------------------------------------------------------|
B|-----------3--------------2--2------2p0----------------------------------|
G|-2/4--4\2--2--0h2p0-------2--2------2p0----------------------------------|
D|-0----0----0-------4-2-0--2--2/4\2--2p0----------------------------------|
A|-0----0----0--------------0--0------0------------------------------------|
E|-------------------------------------------------------------------------|

Verse

e|-3-----------------------------------------------------------------------|
B|-3------------3----------------2--X-X-X--2---2p0-------------------------|
G|-0------------2----------------2--X-X-X--2---2p0-------------------------|
D|-0------------0----------------2--X-X-X--2---2p0-------------------------|
A|-X------------0----------------0--X-X-X--0---0---------------------------|
E|-3-----------------------------------------------------------------------|

Go here for the rest: http://www.guitartutee.com/tabs/2008/10/07/keith-urban-stupid-boy/

Be the First to Comment

Share Your Thoughts

  • Hot
  • Latest