How To: Play "Teenage Dirtbag" by Wheatus on guitar

Play "Teenage Dirtbag" by Wheatus on guitar

How to Play "Teenage Dirtbag" by Wheatus on guitar

Learn how to play "Teenage Dirtbag" by Wheatus, an acoustic guitar tutorial. Follow along with this demonstration, tabs and lyrics here:

Standard Tuning:

E - 022100
B5sus - x24400
C#5sus - x46600
Asus4 - x02200

Intro:
E B5sus E Asus4

Verse:
E B5sus E Asus4

Pre:
C#5sus Asus4 B5sus

Chorus:
E Asus4 Bsus5

|-----------------
|-----------------
|-----------------
|----6------------
|--4-----6--------
|------4----------

(3x)

E Asus B5sus

|--------------------------
|--------------------------
|--------------------------
|----6----------2-----4----
|--4-----6----0-----2------
|------4-------------------

Verse:
Pre:
Chorus:

Bridge:
E Asus (3x)
|--------------------------
|--------------------------
|--------------------------
|----6----------2-----4----
|--4-----6----0-----2------
|------4-------------------

OutrO:
E B5sus E

-----------0-|-
-----------0-|-
-----------1-|-
-----------2-|-
-----------2-|-
-5-4-2h4-2-0-|-
ENDING

Her name is Noel
I have a dream about her
she rings my bell
I got gym class in half an hour

Oh how she rocks
In Keds and nike socks
But she doesn't know who I am
And she doesn't give a damn about me

Cause I'm just a teenage dirtbag baby
Yeah I'm just a teenage dirtbag baby
Listen to Iron Maiden baby with me
Ooohoooooo

Her boyfriend's a dick
he brings a gun to school
And he'd simply kick
My ass if he knew the truth
He lives on my block
He drives an IROC
But he doesn't know who I am
And he doesn't give a damn about me…

Cause i'm just a teenage dirtbag baby
Yeah i'm just a teenage dirtbag baby
listen to Iron Maden baby
Ooohoooooo

Oh yeah, dirtbag
No, she doesn't know what she's missing.
Oh yeah, dirtbag
No, she doesn't know what she's missing.

Man I feel like mold
It's prom night and I am lonely.
Low and behold
she's walking over to me.

This must be fake
My lips starts to shake
How does she know who I am?
And why does she give a d

Be the First to Comment

Share Your Thoughts

  • Hot
  • Latest